Chord pro icon

Lion And The Lamb

Bethel

Key of:

90 BPM

Intro (2x)
C#m 
Verse 1
     B                   
Hes coming on the clouds
Kings and kingdoms 
C#m      E   
will bow down
    G#m                   
And Every chain will break
As broken hearts 
  F#        E     
declare His praise
For who can stop 
    F#            
the Lord almighty?
Chorus
B                    
 Our God is the Lion,
     F#      G#m  
 the Lion of Judah
He’s roaring with power
     F#           E      
 and fighting our battles
                F#            
Every knee will bow before Him
B                    
 Our God is the Lamb,
     F#            G#m  
 the Lamb that was slain
For the sins of the world, 
    F#               E     
His blood breaks the chains
                 F#         
Every knee will  bow before 
                 E   
the Lion and the Lamb
                F#            
Every knee will bow before Him
Verse 2
   B                
So open up the gates
                    C#m     E    
Make way before the King of Kings
    G#m                  
The God who comes to save
                   F#       E   
Is here to set the captives free
                     F#            
For who can stop the Lord almighty?
Interlude
C#m B/D# F# 
Bridge
C#m               B/D#          
 Who can stop the Lord almighty?
E                 F#            
 Who can stop the Lord almighty?

Lion And The Lamb

Bethel

Verse 1

He’s coming on the clouds

Kings and kingdoms will bow down

Every chain will break

As broken hearts declare His praise

For who can stop the Lord almighty?

Chorus

Our God is the Lion, the Lion of Judah

He’s roaring with power and fighting our battles

Every knee will bow before Him

Our God is the Lamb, the Lamb that was slain

For the sins of the world, His blood breaks the chains

Every knee will bow before the Lion and the Lamb

Every knee will bow before Him

Verse 2

Open up the gates

Make way before the King of Kings

The God who comes to save

Is here to set the captives free

For who can stop the Lord almighty?

Bridge

Who can stop the Lord almighty?

Who can stop the Lord almighty?

 

Lion And The Lamb

Bethel

Electric 1 Tabs"Key of B"

90 BPM

 

Electric 1

 

Intro: 2x

 

E|-------------------------11-------------11------------11-

B|-----4------5-4----12-14----14-14-12-14----14---12-14----

G|-4-6----4-6------11---------------------------11---------

D|---------------------------------------------------------

A|---------------------------------------------------------

E|---------------------------------------------------------

 

E|-------------11----|

B|-14-14-12-14----14-|

G|-------------------|

D|-------------------|

A|-------------------|

E|-------------------|

 

Verse 2: 2x

 

E|------------2-----------2-----------2-----------2-----|

B|--------------4-2---------4-2---------4-2---------4-2-|

G|-(4)--4-4-4-------4-4-4-------4-4-4-------4-4-4-------|

D|------------------------------------------------------|

A|------------------------------------------------------|

E|------------------------------------------------------|

 

Chorus: Chords

 

E|--9---------9---------------------|

B|-12---12---12---12---11---12---11-|

G|-11----9---11----9---11----9---11-|

D|--9----9----9----9----9----9----9-|

A|----------------------------------|

E|----------------------------------|

 

Bridge:

 

E|-------|-0-----------------------2-------|-0-------2-|

B|-------|-----4---2---4---2---0-------0---|-----4-----|

G|-4-4-4-|---4---4---4---4---4---4---4---4-|---4---4---|

D|-------|---------------------------------|-----------|

A|-------|----------3 times----------------|----Last---|

E|-------|---------------------------------|----Time---|

 

Lion And The Lamb

Bethel

Electric 2 Tabs"Key of B"

90 BPM

 

Electric 2

 

Intro: 2x

 

E|-------11-------12-11---------11-------------11------------11-

B|-12-14----12-14---------12-14----14-14-12-14----14---12-14----

G|----------------------11---------------------------11---------

D|--------------------------------------------------------------

A|--------------------------------------------------------------

E|--------------------------------------------------------------

 

E|-------------11----|

B|-14-14-12-14----14-|

G|-------------------|

D|-------------------|

A|-------------------|

E|-------------------|

 

Verse 2: Repeat

 

E|---------------|

B|---------------|

G|-xx-4-6-xxxxxx-|

D|---------------|

A|---------------|

E|---------------|

 

Chorus: Chord Shapes

 

E|--------------0-|

B|-0--0--4---0--0-|

G|-4--9--4--11--9-|

D|-4--9--6--11--9-|

A|-2--7--6---9--7-|

E|----------------|

 

Bridge: Repeat

 

E|-------------11----------------------11----------|

B|-------14-------14----14-------14-------14-------|

G|-11-11----11-------11----11-11----11-------11-11-|

D|-------------------------------------------------|

A|-------------------------------------------------|

E|-------------------------------------------------|

 

 

Lion And The Lamb

Bethel

"Key of B"

90 BPM

Intro

G  Am  C  (2x)

Verse 1

         G

He’s coming on the clouds

                                 Am         C

Kings and kingdoms will bow down

       Em

And Every chain will break

                                  D           C

As broken hearts declare His praise

                                      D

For who can stop the Lord almighty?

Chorus

G                                        D         Em

  Our God is the Lion, the Lion of Judah

                                                  D

He’s roaring with power and fighting our

  C

battles

                         D

Every knee will bow before Him

G                                            D

  Our God is the Lamb, the Lamb

               Em

that was slain

                                                    D

For the sins of the world, His blood

                   C

breaks the chains

    D

Every knee will bow before the Lion and

       C

the Lamb

                            D

Every knee will bow before Him

Verse 2

      G

So open up the gates

                                  Am        C

Make way before the King of Kings

       Em

The God who comes to save

                            D            C

Is here to set the captives free

                                      D

For who can stop the Lord almighty?

Interlude

Am  G/B  C  D

Bridge

Am                               G/B

      Who can stop the Lord almighty?

C                               D

   Who can stop the Lord almighty?

Lion And The Lamb

Bethel

Capo 4"Key of B"

90 BPM

Intro

G  Am  C  (2x)

Verse 1

         G

He’s coming on the clouds

                                 Am         C

Kings and kingdoms will bow down

       Em

And Every chain will break

                                  D           C

As broken hearts declare His praise

                                      D

For who can stop the Lord almighty?

Chorus

G                                        D         Em

  Our God is the Lion, the Lion of Judah

                                                  D

He’s roaring with power and fighting our

  C

battles

                         D

Every knee will bow before Him

G                                            D

  Our God is the Lamb, the Lamb

               Em

that was slain

                                                    D

For the sins of the world, His blood

                   C

breaks the chains

    D

Every knee will bow before the Lion and

       C

the Lamb

                            D

Every knee will bow before Him

Verse 2

      G

So open up the gates

                                  Am        C

Make way before the King of Kings

       Em

The God who comes to save

                            D            C

Is here to set the captives free

                                      D

For who can stop the Lord almighty?

Interlude

Am  G/B  C  D

Bridge

Am                               G/B

      Who can stop the Lord almighty?

C                               D

   Who can stop the Lord almighty?

Lion And The Lamb

Bethel

Numbers"Key of B"

90 BPM

Intro

1  2m  4  (2x)

Verse 1

         1

He’s coming on the clouds

                                 2m         4

Kings and kingdoms will bow down

       6m

And Every chain will break

                                  5           4

As broken hearts declare His praise

                                      5

For who can stop the Lord almighty?

Chorus

1                                        5         6m

  Our God is the Lion, the Lion of Judah

                                                  5

He’s roaring with power and fighting our

  4

battles

                         5

Every knee will bow before Him

1                                             5

  Our God is the Lamb, the Lamb

               6m

that was slain

                                                    5

For the sins of the world, His blood

                   4

breaks the chains

    5

Every knee will bow before the Lion and

       4

the Lamb

                            5

Every knee will bow before Him

Verse 2

      1

So open up the gates

                                  2m        4

Make way before the King of Kings

       6m

The God who comes to save

                            5            4

Is here to set the captives free

                                      5

For who can stop the Lord almighty?

Interlude

2m  1/3  4  5

Bridge

2m                               1/3

      Who can stop the Lord almighty?

4                                5

   Who can stop the Lord almighty?

Lion And The Lamb

Bethel

Bass Tab"Key of B"

90 BPM

Intro

 

G|-----------------------------------------|
D|-----------------------------------------|
A|-22-2-22-4-------------------------------| x2
E|-----------00-0-00-0---------------------|

 

Verse 1

 

G|-----------------------------------------|
D|-----------------------------------------|
A|-2222222-4444-7777777x77x7777777x77x-----|
E|-----------------------------------------|

 

G|-----------------------------------------|
D|-----------------------------------------|
A|-11(x12)-----------9999-77777777-999999--|
E|---------------------------------------0-|

 

Chorus

 

G|-----------------------------------------|
D|-----------------------------------------|
A|-2~--------------------------------------|
E|-------2~------4~----2~----0~----2~------|

 

G|-----------------------------------------|
D|-----------------------------------------|
A|-2-22------------------/7-79-------------|
E|-------2-4-44-2--0-02--------------------|

 

Turnaround

 

G|-----------------------------------------|
D|-----------------------------------------|
A|-22-2-22-4-------777---7h999-------------|
E|-----------00-0/-----------2h444---------|

 

Verse 2

 

G|---------------------------------------------|
D|-----------------------------------13-11-----|
A|-2222222-4444-777777779h77-77779/11-----14---|
E|---------------------------------------------|

 

 

G|---------------------------------------------|
D|---------------------------------------------|
A|-11(x12)-------99999-77777777-999999999/-----|
E|----------------------------------------0000-|

 

Chorus 2

 

G|---------------------------------------------|
D|---------------------------------------------|
A|-2222-2-2222----------------99-67777-7-9999--|X2
E|-----------22X2-4444-4-4444----------------22|

 

“Every Knee”

 

G|-----------------------------------------|
D|-----------------------------------------|
A|-777777-999999-7777777-99999/------------|
E|------------------------------2222-------|

 

Bridge

 

G|--------------|
D|--------------|
A|-4~6~7~9~-----| x3
E|--------------|

 

G|-----------------------------------------|
D|-----------------------------------------|
A|-4--4-6--7-7-9---------------------------|
E|-----------------------------------------|

 

G|-----------------------------------------|
D|-----------------------------------------|
A|-4444-6666-7777-9~-----------------------|
E|-----------------------------------------|

 

Chorus 3

 

G|---------------------------------------------|
D|---------------------------------------------|
A|-2222-2-2222----------------99-67777-7-9999--|X2
E|-----------22X2-4444-4-4444----------------22|

 

“Every Knee”

 

G|-----------------------------------------|
D|-----------------------------------------|
A|-777777-999999-7777777-99999/------------|
E|------------------------------2222-------|

 

Outro

 

G|-----------------------------------------|
D|-----------------------------------------|
A|-2222-2---2222-2--2222-2-2222-/14141414--|
E|-----------------------------------------|