Heaven And Earth

Hillsong Worship

Key of:

152 BPM

Intro (2x)
F#m 
Verse 1
E                     
Love that was foretold
         B        C#m  
When the prophets spoke
              A
Of One to come 
E                 
Heaven came for us
     B/D#   C#m   
Reconciling hearts
To You our God
Chorus
G#m        A             B
Heaven and Earth collide  
               A    E       C#m 
The Savior for everyone has come
G#m          A       E    B
Bringing the dead to life  
            A     E       C#m  B
All for the glory of Your Name  
Verse 2
E                     
Now he comes with hope
      B/D#     C#m 
In salvation's robe
           A   
To lead us home
E                   
Healing in His wings
           B/D# C#m 
Freedom in His scars
            A   
His kingdom come
Instrumental (2x)
C#m 
Bridge
       A                    
By His stripes we are healed
       B                
By His death we can live
   C#m            B         
In Jesus Name, In Jesus Name
    A                    
All oppression will cease
      B               
Every captive released
   C#m            B         
In Jesus Name, In Jesus Name

Heaven And Earth

Hillsong Worship

Verse 1

Love that was foretold

When the prophets spoke

Of One to come       

Heaven came for us

Reconciling hearts

To You our God

Chorus

Heaven and Earth collide

The Savior for everyone has come

Bringing the dead to life

All for the glory of Your Name        

Verse 2

Now He comes with hope

In salvation's robe

To lead us home      

Healing in His wings

Freedom in His scars

His kingdom come

Bridge (2x)

By His stripes we are healed

By His death we can live

In Jesus Name, In Jesus Name

All oppression will cease

Every captive released

In Jesus Name, In Jesus Name

Heaven And Earth

Hillsong Worship

Electric 1 Tabs Key of E

152 BPM

Intro: Chords

 

E|------9-----|

B|-9---10-----|

G|-9---11---6-|

D|-x----x---7-|

A|-7----9---x-|

E|----------5-|

 

Chorus: 2x

 

E|-----------------------------------7------

B|---9-7-9-7---9-7-9-7---9-7-9-7-9-----10-9-

G|-9---------9---------9-----------9--------

D|------------------------------------------

A|------------------------------------------

E|------------------------------------------

 

E|-----------------------------------------|

B|---9-7-9-7---9-7-9-7---9-7-9-7-9---------|

G|-9---------9---------9-----------9-8-8-8-|

D|-----------------------------------------|

A|-----------------------------------------|

E|-----------------------------------------|

 

Instrumental: 2x

 

E|------------|

B|------------|

G|-6--8--9--8-|

D|-x--x--x--x-|

A|-4--6--7--6-|

E|------------|

 

Bridge: 2x

 

E|-0--0---0--0-|

B|-0--0---0--0-|

G|-6--8---9--8-|

D|-7--9--11--9-|

A|-------------|

E|-------------|

Heaven And Earth

Hillsong Worship

Electric 2 Tabs Key of E

152 BPM

Intro: 2x

 

E|-0---0---0-|

B|-0---0---0-|

G|-9---9---9-|

D|-9---9---9-|

A|-7---9---0-|

E|-----------|

 

Verse:

 

E|---------------------------------------------------------------

B|---------------------------------------------------------------

G|-1---1---1---1---1---1---1---1---1---1---1---1---1---1---4-2-1-

D|---2---2---2---2---2---2---2---2---2---2---2---2---2---2-------

A|---------------------------------------------------------------

E|---------------------------------------------------------------

 

E|-------------|

B|-----4---5---|

G|-2/4---4-----|

D|-Last time---|

A|-End on this-|

E|-------------|