Way Maker

Leeland

Key of:

68 BPM

Intro
Bsus C#m 
Verse 1
        A                  
You are here moving in our 
 E   
midst
          Bsus           C#m
I worship You, I worship You
        A                    
You are here working in this 
E    
place
          Bsus           C#m
I worship You, I worship You
Chorus
          A                  
(You are) Way maker, miracle 
worker
E                            
Promise keeper, Light in the 
darkness
Bsus                    C#m
 My God that is who You are
          A                  
(You are) Way maker, miracle 
worker
E                            
Promise keeper, Light in the 
darkness
Bsus                    C#m
 My God that is who You are
Verse 2
         A                  
You are here touching every 
 E   
heart
          Bsus           C#m
I worship You, I worship You
         A                 
You are here healing every 
E    
heart
          Bsus           C#m
I worship You, I worship You
         A                  E    
You are here turning lives around
          Bsus           C#m
I worship You, I worship You
         A                  E   
You are here mending every heart
          Bsus           C#m
I worship You, I worship You
Refrain
                A  
That is who You are
                E/G#
That is who You are 
                Bsus
That is who You are 
                C#m
That is who You are
Bridge
A                         
 Even when I don't see it 
You're working
E                          
 Even when I don't feel it 
You're working
Bsus                       
 You never stop, You never 
stop working
C#m                        
 You never stop, You never 
stop working

Way Maker

Leeland

Verse 1

You are here moving in our midst

I worship You, I worship You

You are here working in this place

I worship You, I worship You

Chorus

 (You are) Way maker, miracle worker

Promise keeper, Light in the darkness

My God that is who You are

 (You are) Way maker, miracle worker

Promise keeper, Light in the darkness

My God that is who You are

Verse 2

You are here touching every heart

I worship You, I worship You

You are here healing every heart

I worship You, I worship You

You are here turning lives around

I worship You, I worship You

You are here mending every heart

I worship You, I worship You

Refrain

That is who You are

That is who You are

That is who You are

That is who You are

Bridge

Even when I don't see it You're working

Even when I don't feel it You're working

You never stop, You never stop working

You never stop, You never stop working

 

Way Maker

Leeland

Electric 1 Tabs"Key of E"

68 BPM

Intro: Swells with overdrive, reverb and delay

E|-------------------------|

B|-9-----------10--9--7--9-|

G|-9--11--8-9--9-----------|

D|-------------------------|

A|-------------------------|

E|-------------------------|

 

Verse 1: Swells with overdrive, reverb and delay

E|--------------------------|

B|-10--9--7--5--10--9--7--9-|

G|-9---9--------------------|

D|--------------------------|

A|--------------------------|

E|--------------------------|

 

E|--------------------------|

B|-10--9--7--5--10--9--7--9-|

G|--------------------------|

D|--------------------------|

A|--------------------------|

E|--------------------------|

 

Chorus 1: swells with overdrive, delay, and reverb

E|--------------------|

B|-10-9-7-5--10-9-7-9-|

G|--------------------|

D|--------------------|

A|--------------------|

E|--------------------|

 

Verse 2: swells with overdrive, delay, and reverb 

E|---------0--------------0--0-|

B|------5--7--9--14-12-9--7--9-|

G|-4/6--4----------------------|

D|-----------------------------|

A|-----------------------------|

E|-----------------------------|

 

E|--------0------------0-0-|

B|-10--9--7--5-14-12-9-7-9-|

G|-9-----------------------|

D|-------------------------|

A|-------------------------|

E|-------------------------|

 

Chorus 2: with overdrive, delay, and reverb

E|----------------------|

B|-10-9------------9----|

G|--------11--9-11--9---|

D|---9--9------------11-|

A|----------------------|

E|----------------------|

  (repeat 4X)

 

 

 

 

 

Refrain: with overdrive, delay, and reverb

E|------------------------------------------|

B|------------------------------------------|

G|-9--9--9--9--9--9--9--9---9-9-9-9-9-9-9-9-|

D|-11-11-11-11-11-11-11-11--9-9-9-9-9-9-9-9-|

A|------------------------------------------|

E|------------------------------------------|

 

E|------------------------------------------|

B|------------------------------------------|

G|-8-8-8-8-8-8-8-8--9--9--9--9--9--9--9--9--|

D|-9-9-9-9-9-9-9-9--11-11-11-11-11-11-11-11-|

A|------------------------------------------|

E|------------------------------------------|

 

E|------------------------------------------|

B|-10-10-10-10-10-10-10-10--9-9-9-9-9-9-9-9-|

G|-9--9--9--9--9--9--9--9---9-9-9-9-9-9-9-9-|

D|------------------------------------------|

A|------------------------------------------|

E|------------------------------------------|

 

E|--------------------------------------------|

B|-12-12-12-12-12-12-12-12--9-9-9-9-9-9-9-9-9-|

G|-11-11-11-11-11-11-11-11--9-9-9-9-9-9-9-9-9-|

D|--------------------------------------------|

A|--------------------------------------------|

E|--------------------------------------------|

 

Chorus 3: swells with overdrive, delay, and reverb

E|-------------------------|

B|-10----------10--9--7--9-|

G|-9----8-9----9-----------|

D|-------------------------|

A|-------------------------|

E|-------------------------|

 

Bridge: with overdrive, delay, and reverb

E|-16--12--16--14--12------16--14------------------|

B|---------------------14----------0-0-0-0-0-0-0-0-|

G|---------------------------------9-9-9-9-9-9-9-9-|

D|-------------------------------------------------|

A|-------------------------------------------------|

E|-------------------------------------------------|

 

E|---------------------------------------------------------|

B|-0-0-0--0-0-0-0-0---0-0-0--0-0-0-0-0---0-0-0--0-0-0-0-0--|

G|-9-8-9--9-9-8-9-11--9-8-9--9-9-8-9-11--9-8-9--9-9-8-9-11-|

D|---------------------------------------------------------|

A|---------------------------------------------------------|

E|---------------------------------------------------------|

 

E|-------------------|

B|-0-0-0-0-0-0-0-0-0-|

G|-9-9-9-9-9/8-8/4-4-|

D|-------------------|

A|-------------------|

E|-------------------|

 

E|---------------------------------------------------------|

B|-0-0-0--0-0-0-0-0---0-0-0--0-0-0-0-0---0-0-0--0-0-0-0-0--|

G|-9-8-9--9-9-8-9-11--9-8-9--9-9-8-9-11--9-8-9--9-9-8-9-11-|

D|---------------------------------------------------------|

A|---------------------------------------------------------|

E|---------------------------------------------------------|

 

E|-------------------|

B|-0-0-0-0-0-0-0-0-0-|

G|-9-9-9-9-9/8-8/4-4-|

D|-------------------|

A|-------------------|

E|-------------------|

 

 

Chorus: with overdrive, reverb and delay

E|-----------------------------------|

B|-0-0-0--0-0-0-0-0---0-0-0--0-0-0-0-|

G|-9-8-9--9-9-8-9-11--9-8-9--9-9-8-9-|

D|-----------------------------------|

A|-----------------------------------|

E|-----------------------------------|

 

E|-------------------------------------------|

B|-0--0--0--0--0---0-0--0--0-0-0-0-0-0-0-0-0-|

G|-11-11-11-11-11--9-11-13-9-6-6-6-6-6-6-4-4-|

D|-------------------------------------------|

A|-------------------------------------------|

E|-------------------------------------------|

 

E|-----------------------------------|

B|-0-0-0--0-0-0-0-0---0-0-0--0-0-0-0-|

G|-9-8-9--9-9-8-9-11--9-8-9--9-9-8-9-|

D|-----------------------------------|

A|-----------------------------------|

E|-----------------------------------|

 

E|-------------------------------------------|

B|-0--0--0--0--0---0-0--0--0-0-0-0-0-0-0-0-0-|

G|-11-11-11-11-11--9-11-13-9-6-6-6-6-6-6-4-4-|

D|-------------------------------------------|

A|-------------------------------------------|

E|-------------------------------------------|

 

Refrain: with overdrive, reverb and delay

E|-----------------------------------|

B|-0-0-0--0-0-0-0-0---0-0-0--0-0-0-0-|

G|-9-8-9--9-9-8-9-11--9-8-9--9-9-8-9-|

D|-----------------------------------|

A|-----------------------------------|

E|-----------------------------------|

 

E|-------------------------------------------|

B|-0--0--0--0--0---0-0--0--0-0-0-0-0-0-0-0-0-|

G|-11-11-11-11-11--9-11-13-9-6-6-6-6-6-6-4-4-|

D|-------------------------------------------|

A|-------------------------------------------|

E|-------------------------------------------|

 

E|-----------------------------------|

B|-0-0-0--0-0-0-0-0---0-0-0--0-0-0-0-|

G|-9-8-9--9-9-8-9-11--9-8-9--9-9-8-9-|

D|-----------------------------------|

A|-----------------------------------|

E|-----------------------------------|

 

   

E|-----------------------------------------------|

B|-0--0--0--0--0---0-0--0--0-0-0-0-0-0-----------|

G|-11-11-11-11-11--9-11-13-9-6-6-6-6---6-8b9r8-6-|

D|-----------------------------------------------|

A|-----------------------------------------------|

E|-----------------------------------------------|

 

Chorus: swells with overdrive, delay, and reverb

E|---------------------|

B|------9--10--9--7--9-|

G|--8-6----------------|

D|---------------------|

A|---------------------|

E|---------------------|

 

Instrumental: swells with overdrive, delay, and reverb

E|-12--16----14--12-11-----------16----14-----16-|

B|-12-----12-----------14-12--14-----12----14----|

G|-----------------------------------------------|

D|-----------------------------------------------|

A|-----------------------------------------------|

E|-----------------------------------------------|

 

Refrain: swells with overdrive, delay, and reverb

E|-12----14--16--------------12--14--12-|

B|-12--9--------14-12-10--9----------12-|

G|--------------------------------------|

D|--------------------------------------|

A|--------------------------------------|

E|--------------------------------------|

Way Maker

Leeland

Electric 2 Tabs"Key of E"

68 BPM

 Intro: tremolo picking with overdrive, reverb and delay

E|---|

B|---|

G|-9-|

D|---|

A|---|

E|---|

   (Repeat)

 

Verse 1:  Tremelo picking with overdrive, reverb and delay

E|---|

B|---|

G|-9-|

D|---|

A|---|

E|---|

   (Repeat)

 

Chorus 1: with overdrive, delay, and reverb

E|---------------------------4--|

B|---5--5---5--5---5--5---5---5-|

G|--4--4---4--4---4--4---4--4---|

D|-7--7---6--6---4--4---6--6----|

A|------------------------------|

E|------------------------------|

   (Repeat)

 

Verse 2: with overdrive, delay, and reverb 

E|----4---4---4---4---4---4---4---4---4---4---4---4---4---4---4|

B|---5---5---5---5---5---5---5---5---5---5---5---5---5---5---5-|

G|--4---4---4---4---4---4---4---4---4---4---4---4---4---4---4--|

D|-7---7---7---7---6---6---6---6---4---4---4---6---6---6---6---|

A|-------------------------------------------------------------|

E|-------------------------------------------------------------|

   (Repeat 4X)

 

Chorus 2: with overdrive and reverb

E|-0----0----0----0-|

B|-0----0----0----0-|

G|-4----4----4----4-|

D|-2----2----4----2-|

A|-0----2----2----4-|

E|-X----0----X----X-|

  8X   8X  8X    8X

 

E|-0----0----0----0-|

B|-0----0----0----0-|

G|-4----4----4----4-|

D|-2----2----4----2-|

A|-0----2----2----4-|

E|-X----0----X----X-|

  8X  8X   8X   8X

 

E|-0----0----0----0-|

B|-0----0----0----0-|

G|-4----4----4----4-|

D|-2----2----4----2-|

A|-0----2----2----4-|

E|-X----0----X----X-|

  8X   8X  8X    8X

 

E|-0----0----0----0-|

B|-0----0----0----0-|

G|-4----4----4----4-|

D|-2----2----4----2-|

A|-0----2----2----4-|

E|-X----0----X----X-|

  8X   8X  8X    8X

 

Refrain: with overdrive and reverb

E|-0----0----0----0-|

B|-0----0----0----0-|

G|-4----4----4----4-|

D|-2----2----4----2-|

A|-0----X----2----4-|

E|-X----4----X----X-|

  8X   8X  8X    8X

 

E|-0----0----0----0-|

B|-0----0----0----0-|

G|-4----4----4----4-|

D|-2----2----4----2-|

A|-0----X----2----4-|

E|-X----4----X----X-|

  8X   8X  8X    8X

 

Chorus: with overdrive and reverb

E|-0-|

B|-0-|

G|-4-|

D|-2-|

A|-2-|

E|-0-|

 

Bridge: with overdrive, delay, and reverb

 

E|---------------------------4--|

B|---5--5---5--5---4--4---5---5-|

G|--4--4---4--4---4--4---4--4---|

D|-7--7---6--6---4--4---6--6----|

A|------------------------------|

E|------------------------------|

   (Repeat)

 

E|-0----0----0----0-|

B|-0----0----0----0-|

G|-4----4----4----4-|

D|-2----2----4----2-|

A|-0----2----2----4-|

E|-X----0----X----X-|

 

E|-0----0----0----0-|

B|-0----0----0----0-|

G|-4----4----4----4-|

D|-2----2----4----2-|

A|-0----2----2----4-|

E|-X----0----X----X-|

  8X   8X  8X    8X

 

Chorus: with overdrive and reverb

E|-0----0----0----0-|

B|-0----0----0----0-|

G|-4----4----4----4-|

D|-2----2----4----2-|

A|-0----2----2----4-|

E|-X----0----X----X-|

  8X  8X   8X    8X

 

E|-0----0----0----0-|

B|-0----0----0----0-|

G|-4----4----4----4-|

D|-2----2----4----2-|

A|-0----2----2----4-|

E|-X----0----X----X-|

  8X  8X   8X    8X

 

Refrain: with overdrive and reverb

E|-0----0----0----0-|

B|-0----0----0----0-|

G|-4----4----4----4-|

D|-2----2----4----2-|

A|-0----X----2----4-|

E|-X----4----X----X-|

  16X 16X  16X  16X

 

E|-0----0----0----0-|

B|-0----0----0----0-|

G|-4----4----4----4-|

D|-2----2----4----2-|

A|-0----X----2----4-|

E|-X----4----X----X-|

  16X 16X  16X  16X

 

Chorus: with overdrive and reverb

E|-0-|

B|-0-|

G|-4-|

D|-2-|

A|-2-|

E|-0-|

Way Maker

Leeland

Bass Tab"Key of E"

68 BPM

Chorus

G|---------------------------------------------------|

D|---------------------------------------------------|

A|-----7--------------7------------------------------|

E|-5------7---9---5------7--9--7---------------------|

 

Verse 2

G|---------------------------------------------------|

D|---------------------------------------------------|

A|-----7--------------------7------------------------|

E|-5--------7---9---7---5------7--9--9-7-------------|

 

Verse 3

G|---------------------------------------------------|

D|---------------------------------------------------|

A|-12121212-7777-------------------------------------|

E|----------------7777-999-7-------------------------|

 

Build

G|---------------------------------------------------|

D|---------------------------------------------------|

A|-1212121212121212-77777777-------------------------|

E|---------------------------77777777-9999999999999--|

 

Chorus

G|---------------------------------------------------------|

D|---------------------------------------------------------|

A|---------------------------------------------------------|

E|-55-55-00-00-77-77-99-99-77-55-55-00-00-77-77-9999999-77-|

 

Chorus

G|-------------------------------------------------------------|

D|-------------------------------------------------------------|

A|----------------------------1212-1212-77-77-22-222-444444-22-|

E|-55-55-00-00-77-77-99-99-77----------------------------------|

 

Refrain

G|-----------------------------------------------------|

D|-----------------------------------------------------|

A|-1212121212121212-1111111111111111-1414141414141412/-|

E|-----------------------------------------------------|

 

G|------------------------------------------------------|

D|------------------------------------------------------|

A|-4-44444-444-4-2-000000000-----------2222222/14141414-|

E|--------------------------4444444444------------------|

 

G|---------------------------------------------------|

D|---------------------------------------------------|

A|-16161616161616161616--12--------------------------|

E|---------------------------------------------------|

 

Bridge 

G|---------------------------------------------------|

D|---------------------------------------------------|

A|-12--7---------------------------------------------|

E|---------7--99-7-----------------------------------|

 

Drums in

G|---------------------------------------------------|

D|---------------------------------------------------|

A|------7777-----------------------------------------|

E|-5555------7777-999-77-----------------------------|

 

Bridge Build

G|-------------------------------------------------------|

D|----------------------------999999---------------------|

A|-1212121212121212-77777777-----------------------------|

E|----------------------------------7777-999999999999-77-|

 

Chorus

G|---------------------------------------------------------|

D|---------------------------------------------------------|

A|-------------------------7h9-----------------------------|

E|-55-55-00-00-77-77-99-99----55-55-00-00-77-77-9999999-77-|

 

Refrain

G|--------------------------------------------------------|

D|--------------------------------------------------------|

A|-121212-121212-1111-------------------------------------|

E|--------------------44-77-77--999-99-77-55-55-7-5-44-44-|

 

G|---------------------------------------------------|

D|---------------------------------------------------|

A|----/14141414-------------/12---END----------------|

E|-77-----------99999999-77--------------------------|