Chord pro icon

Reckless Love

Cory Asbury

Key of:

83 BPM

Intro
Ebm / Db / B / Gb 
Verse 1
Ebm               Db   
 Before I spoke a word 
                  B     
You were singing over me
Ebm            Db          
 You have been so, so good 
   B 
to me
Ebm              Db          
 Before I took a breath, You 
               B        
breathed Your life in me
Ebm            Db          
 You have been so, so kind 
   B 
to me
Chorus
       Ebm           Db    
Oh the overwhelming, never 
        B                Gb 
ending, reckless love of God
       Ebm             Db     
Oh, it chases me down, fights 
                 B      
'till I'm found, leaves 
           Gb  
the ninety nine
           Ebm             
I couldn't earn it I don't 
Db                    B    
deserve it Still, You give 
         Gb  
yourself away
       Ebm           
Oh the overwhelming, 
Db            B                Gb 
never ending, reckless love of God
Instrumental
Ebm / Db / B / Gb 
Verse 2
Ebm               Db  
 When I was Your foe, 
                 B           
still Your love fought for me
Ebm            Db             B 
 You have been so, so good to me
Ebm              Db             
 When I felt no worth, You paid 
    B        
it all for me
Ebm            Db             B 
 You have been so, so kind to me
Bridge
Ebm                         Db        
There's no shadow You won't light up, 
                   B               
mountain You won't climb up, coming
Gb      
after me
Ebm                       Db         
There's no wall You won't kick down, 
                  B               
no lie You won't tear down, coming
Gb      
after me

Reckless Love

Cory Asbury

Verse 1

Before I spoke a word, You were singing over me  

You have been so, so good to me  

 Before I took a breath, You breathed Your life in me  

You have been so, so kind to me 

Chorus

Oh the overwhelming, never ending, reckless love of God

Oh, it chases me down, fights 'till I'm found, leaves the ninety nine  

I couldn't earn it  I don't deserve it  Still, You give yourself away  

Oh the overwhelming, never ending, reckless love of God

Verse 2

When I was Your foe, still Your love fought for me  

You have been so, so good to me  

When I felt no worth, You paid it all for me  

You have been so, so kind to me 

Bridge

There's no shadow You won't light up,

mountain You won't climb up, coming 

after me  

There's no wall You won't kick down, no

lie You won't tear down, coming 

after me  

Reckless Love

Cory Asbury

Electric 1 Tabs"Key of Gb"

83 BPM

Intro: Clean, neck pickup, dotted eigth note delay

 

E|-14-14-14-14-13-13-13-13-11-11--------16-16-16-16-14-14-13-13-

B|-------------------------------14-11--------------------------

G|--------------------------------------------------------------

D|--------------------------------------------------------------

A|--------------------------------------------------------------

E|--------------------------------------------------------------

 

E|-11-11-------|

B|-------14-11-|

G|-------------|

D|-------------|

A|-------------|

E|-------------|

 

Verse 2: dotted eigth note delay

 

E|-14-|-------------------------|

B|-11-|----11----11----11----11-|

G|-11-|-11----11----11----11----|

D|----|-------------------------|

A|----|-----pick these 2 notes--|

E|----|-----back and forth------|

 

Chorus: subtle high octave pedal. dotted eigth note delay

 

E|-------------|

B|-11----11----|

G|----13-------|

D|----------11-|

A|---repeat----|

E|-------------|

 

Bridge:

 

First part

 

E|-------------------------|

B|----11----11----11----11-|

G|-11----11----11----11----|

D|-------------------------|

A|-----pick these 2 notes--|

E|-----back and forth------|

 

2nd part

 

E|-16-16-16-16-16-16-14-14-14-14-14-14-13-13-13-13-13-------|

B|----------------------------------------------------14-14-|

G|----------------------------------------------------------|

D|----------------------------------------------------------|

A|----------------------------------------------------------|

E|----------------------------------------------------------|

 

E|----------------|

B|-14-14----------|

G|-------13-13-13-|

D|----------------|

A|----------------|

E|----------------|

Reckless Love

Cory Asbury

Electric 2 Tabs"Key of Gb"

83 BPM

Capo 6

 

Intro/Verse 1/Chorus 1: there’s not pattern to this. Just create ambience with lots of delay and reverb.

 

Chorus 2: Chord Shapes

   Am   G    F    C

E|-0----3----0----3-|

B|-1----0----1----1-|

G|-2----0----2----0-|

D|-2----0----3----2-|

A|-0----2----3----3-|

E|------3-----------|

 

Bridge: repeat

 

E|-----------------------------------------------------|

B|-1-1-1-1-1-1-1-0-0-0-0-0-0-1-1-1-1-1-1-1-1-1-1-1-1-1-|

G|-----------------------------------------------------|

D|-----------------------------------------------------|

A|-----------------------------------------------------|

E|-----------------------------------------------------|